The Red Planet (basic)

(/) Slide Up  (\) Slide Down  (h) Hammer On  (p) Pull Off  (b) Bend (r) Release (v) Vibrato

E|-------------------------------------------------------------
B|-------------------------------------------------------------
G|-------------------------------------------------------------
D|-------------------------------------------------------------
A|-1h4---------2h5-4-4-5h8---------6h9---------5-5-2-2-1-1-2-2-
E|-----1-4-1-4-----1-1-----1-4-1-4-----1-4-1-4-----------------



E|----------------------------------------------------------|---
B|----------------------------------------------------------|---
G|----------------------------------------------------------|---
D|----------------------------------------------------------|---
A|-1h4---------------------3h6------------------------------|---
E|-----1-4-1-4-5h8-1-4-1-4-----1-4-1-4-4h7-1-4-1-4--4-1-0-1-|---



E|---------------------------------|---------------------------------|-
B|---------------------------------|---------------------------------|-
G|---------------------------------|---------------------------------|-
D|---------------------------------|---------------------------------|-
A|-----------------6-6-6-8-3-3-3-3-|-----------------2-2-2-4---------|-
E|-6-0-6-9-9-9-8-6-----------------|-5-0-5-4-4-4-2-1---------3-3-3-3-|-



E|-------------------|-------------------|-
B|-------------------|-------------------|-
G|-------------------|-------------------|-
D|-------------------|-------------------|-
A|-------------------|-------------------|-
E|-5-0-5-6-6-5-9-8-6-|-2-0-2-3-3-2-6-5-3-|-



E|--
B|--
G|--
D|--
A|--
E|--
http://www.guitartabcreator.com
Guitar Tab Creator is intended to store guitar tab created through the tool. It currently does not support in-line text editing. Any text you place in here will be lost. If you need to comment on your tab, please use the "Tab Notes" section located below.