Humanities Epilogue

(/) Slide Up  (\) Slide Down  (h) Hammer On  (p) Pull Off  (b) Bend (r) Release (v) Vibrato
E|-----------------------------------------|------------------------------------|-
B|-----------------------------------------|------------------------------------|-
G|-----------------------------------------|------------------------------------|-
D|-----------------------------------------|------------------------------------|-
A|-7-10-7-------------7-10-7-8-11-8-8-11-8-|-7-10-7---------------------8-5-8-5-|-
E|--------6-3-4-1-4-1----------------------|--------6-3-4-1-4-1-0-0-1-1---------|-



E|--------------|--------------|--------------|-------------------------------|-
B|--------------|--------------|--------------|-------------------------------|-
G|--------------|--------------|--------------|-------------------------------|-
D|--------------|--------------|--------------|-------------------------------|-
A|-7-10-7-------|-7-10-7-------|-7-10-7-------|-10-7-10---------------8-5-8-5-|-
E|--------6-3-0-|--------6-3-4-|--------6-3-0-|---------6-3-4-0-0-1-1---------|-



E|--------------------------------------------|----------------------------------------|-
B|--------------------------------------------|----------------------------------------|-
G|--------------------------------------------|----------------------------------------|-
D|--------------------2---------3---------6-3-|----------------------------------------|-
A|-7-10-7-------------------------------------|-7-10-7-------------------------8-5-8-5-|-
E|--------6-3-4-1-4-1---0-0-0-0---1-1-1-1-----|--------6-3-4-3-1-4-1-0-0-0-1-1---------|-



E|------------------|---------------|------------------|---------------|---------------------|---
B|------------------|---------------|------------------|---------------|---------------------|---
G|------------------|---------------|------------------|---------------|---------------------|---
D|------------------|---------------|------------------|---------------|---------------------|---
A|------------------|---------------|------------------|---------------|-------------------6-|---
E|-0--0-0--0--0-0-0-|-1-0-0-1-0-1-0-|-0--0-0--0--0-0-0-|-4-1-1-4-1-4-1-|-1-1-1--1--1--1--1---|---



E|-------------------|-------------------|-----------------|-------------------|-
B|-------------------|-------------------|-----------------|-------------------|-
G|-------------------|-------------------|-----------------|-------------------|-
D|-------------------|-------------------|-----------------|-------------------|-
A|-7-7-7-7-8-7-8-7-8-|-7-7-7-7-8-7-8-7-8-|-7-7-7-7-8-8-7-8-|-6-6-6-6-7-6-7-6-7-|-
E|-------------------|-------------------|-----------------|-------------------|-



E|-------------------|---------|-------------------|----------|-------------------|---------------|-
B|-------------------|---------|-------------------|----------|-------------------|---------------|-
G|-------------------|---------|-------------------|----------|-------------------|---------------|-
D|-------------------|---------|-------------------|----------|-------------------|---------------|-
A|-7-7-7-7-8-7-8-7-8-|-7-8-7-5-|-7-7-7-7-8-7-8-7-8-|-6-7-9-10-|-7-7-7-7-8-7-8-7-8-|-7-8-7-5-10-12-|-
E|-------------------|---------|-------------------|----------|-------------------|---------------|-



E|---------|-----------------------|-------------------|-----------------------|---------------
B|---------|-----------------------|-------------------|-----------------------|---------------
G|---------|-----------------------|-------------------|-----------------------|---------------
D|---------|-----------------------|-------------------|-----------------------|---------------
A|---8-7---|-----------------------|-------------------|-----------------------|---------------
E|-0-----0-|-0-0-1-0-0-4-6-6-6-6-6-|-1-0-1-0-0-4-6-6-6-|-7-6-7-6-6-7-4-4-6-3-3-|-7-6-7-6-6-7---



E|-----------|-
B|-----------|-
G|-----------|-
D|-----------|-
A|-----------|-
E|-3-3-4-0-0-|-



E|-----------------------------------------------------------|-----------------------------------------------------------|-----------|--
B|-----------------------------------------------------------|-----------------------------------------------------------|-----------|--
G|-----------------------------------------------------------|-----------------------------------------------------------|-----------|--
D|--------------6--------8-----------------------------------|--------------6--------8-----------------------------------|-----------|--
A|--------------------------------7--7--7--8--7--7--8--7--7--|--------------------------------6--6--6--7--6--6--7--6--6--|--2--3--2--|--
E|--0--1--0--0-----0--0-----0--0-----------------------------|--0--1--0--0-----0--0-----0--0-----------------------------|--0--1--0--|--
http://www.guitartabcreator.com
Guitar Tab Creator is intended to store guitar tab created through the tool. It currently does not support in-line text editing. Any text you place in here will be lost. If you need to comment on your tab, please use the "Tab Notes" section located below.