Dimensional Odyssey

(/) Slide Up  (\) Slide Down  (h) Hammer On  (p) Pull Off  (b) Bend (r) Release (v) Vibrato
E|-----------------------------|-------------------------------------------------|-
B|-----------------------------|-------------------------------------------------|-
G|-----------------------------|-------------------------------------------------|-
D|-4-5-------------------------|-5-4-----5-4-2-4-8-8-------------5-4-------------|-
A|-----6---------------5-4-5-4-|-------------------------------------6-----------|-
E|-------5-3-6-3-2-3-6-3-2-3-2-|-----3-2-------------3-6-3-2-3-2-------5-3-2-3-2-|-



E|-----------------------|-
B|-----------------------|-
G|-----------------------|-
D|-4-8-8-9-8-5-5-8-5-4-2-|-
A|-----------------------|-
E|-----------------------|-



E|-----------------------------------------------------------------------|-
B|-----------------------------------------------------------------------|-
G|-----------------------------------------------------------------------|-
D|-----------------------------------------------------------------------|-
A|-7-4-------------6-6-3-6-5-5-5-5-7-6-4-6--7-6-5-6-2-3-2-3-----7-4-6----|-
E|-5-2-4-4-4-5-4-2-----------------5-4-2-4--5-4-2-4---------4-4-5-2-4----|-



E|--------------------|------------------|------------------|---------|-
B|--------------------|------------------|------------------|---------|-
G|--------------------|------------------|------------------|---------|-
D|---11-----11-----11-|-11-----11-----11-|-10-----10-----10-|---------|-
A|-8----8-8----8-8----|----8-8----8-8----|----7-7----7-7----|-7-7-8-8-|-
E|--------------------|------------------|------------------|---------|-



E|-----------------|---------------|---------------|------------|-
B|-----------------|---------------|---------------|------------|-
G|-----------------|---------------|---------------|------------|-
D|-----------------|---------------|---------------|-10---10-10-|-
A|---4-----4-----4-|-4-----4-----4-|-3-----3-----3-|----7-------|-
E|-1---1-1---1-1---|---1-1---1-1---|---0-0---0-0---|------------|-



E|-------------------------------------|-------------------------------------|-
B|-------------------------------------|-------------------------------------|-
G|-------------------------------------|-------------------------------------|-
D|-------------------------------------|-------------------------------------|-
A|-----------4-4-4-----3-3-3-3-3-3-3-3-|-----------4-4-4-----3-3-3-3-6-6-8-8-|-
E|-1-1-1-1-5-------1-5-----------------|-1-1-1-1-5-------1-5-----------------|-



E|----------------------------------------|------------------------------------------|-
B|----------------------------------------|------------------------------------------|-
G|----------------------------------------|------------------------------------------|-
D|--------------------8-8-9-8-8-5-5-8-5---|--------------------8-8-9-8-8-9-9-12-9----|-
A|--------------------------------------7-|---------------------------------------10-|-
E|-3-2-3-2--3-2-0-2-3---------------------|-3-2-3-2--3-2-0-2-3-----------------------|-



E|----------------------------------|-------------------------------------------|-
B|----------------------------------|-------------------------------------------|-
G|----------------------------------|-------------------------------------------|-
D|------------------------8---------|--------------------------10-10--10-10--10-|-
A|-4--5-4-5---------4-5-4-6-4-4-5-4-|-4-5-4-4--5-4-3-----------8--8---8--8---8--|-
E|-2--3-2-3-2-2-2-2-2-3-2-6-2-2-3-2-|-2-3-2-2--3-2-1-1-1-1-1-1-8--8---8--8---8--|-



E|-----------------|-
B|-----------------|-
G|-----------------|-
D|-----------------|-
A|-----------------|-
E|-8-7-5-7-5-3-5-2-|-



E|-------------------------------------------------------------------|------------|-
B|-------------------------------------------------------------------|------------|-
G|-------------------------------------------------------------------|------------|-
D|---------------------------------10-8-7-6--10-9-7-6----------------|------------|-
A|-7-4-----------------------------8--7-5-4--8--7-5-4----------------|-7-4-6------|-
E|-5-2-1-1-1-2-1-2-6-6-3-6-5-5-5-5-8--7-5-4--8--7-5-4--7-8-7-8-4-4-4-|-5-2-4------|-



E|-------------------------------------------------------|---------------------------------------------------------|--------------|--
B|-------------------------------------------------------|---------------------------------------------------------|--------------|--
G|-------------------------------------------------------|---------------------------------------------------------|--------------|--
D|-------------------------8--8--9--8--8--5--5--8--5--4--|-------------------------8--8--9--8--8--9--9--12--9------|--------------|--
A|-------------------------------------------------------|-----------------------------------------------------10--|--5--4--5--4--|--
E|--3--2----3--2--0--2--3--------------------------------|--3--2----3--2--0--2--3----------------------------------|--3--2--3--2--|--
http://www.guitartabcreator.com
Guitar Tab Creator is intended to store guitar tab created through the tool. It currently does not support in-line text editing. Any text you place in here will be lost. If you need to comment on your tab, please use the "Tab Notes" section located below.