Apophys nummer 7

(/) Slide Up  (\) Slide Down  (h) Hammer On  (p) Pull Off  (b) Bend (r) Release (v) Vibrato

E|------------------------------------------|-
B|------------------------------------------|-
G|------------------------------------------|-
D|-8----------------------------------------|-
A|-6----1-2-5-4--4-1--1-2-1-----------------|-
E|-6----1-2-6-5--5-2--2-3-2-0-0-0-0-0-0-0-0-|-



E|---------------------------------|--------------------------------|-
B|---------------------------------|--------------------------------|-
G|---------------------------------|--------------------------------|-
D|---------------------------------|--------------------------------|-
A|---6-2-5-5-6---5-5-6---5-5-6-6-6-|-6-2---1-1-2--------------------|-
E|-3-----------3-------3-----------|-----3-------3-6-6-5--5-5-2-2-2-|-



E|----------------------------------------|---------------------------------------|-
B|----------------------------------------|---------------------------------------|-
G|----------------------------------------|---------------------------------------|-
D|---8------------------------------------|---8-----------------------------------|-
A|-5-6-1-2-5-4-1--2-2-2-2---2-2-2-2-2-2-2-|-5-6-1-2-5-4-1-------------------------|-
E|-3-6-1-2-6-5-2--3-3-3-3---3-3-3-3-3-3-3-|-3-6-1-2-6-5-2-1-1-1-1-1-1-1-1-1-1-1-1-|-



E|-------------------------------------------------|-
B|-------------------------------------------------|-
G|-------------------------------------------------|-
D|-------------8------------------------8--------0-|-
A|-1-1-2--1--0-6-1-1-1-2--1--0--3--1--0-6-1--1-1-0-|-
E|-0-0-2--1--0-6-0-0-0-2--1--0--3--1--0-6-0--0-0-0-|-



E|-----------------------------------------------------------------------------|-
B|-----------------------------------------------------------------------------|-
G|-----------------------------------------------------------------------------|-
D|-8-----------8-----------8---------------------------8-----------8-----------|-
A|-6-5---------6-5---------6-5-------------------------6-5---------6-5---------|-
E|-6-3-1-2-1-2-6-3-1-2-1-2-6-3-1-2-1-2-5h8-5h8-2h5-2h5-6-3-1-2-1-2-6-3-1-2-1-2-|-



E|---
B|---
G|---
D|---
A|---
E|-2-



E|-------------------------------|-
B|-------------------------------|-
G|-------------------------------|-
D|-------------------------------|-
A|-2-2-2-2--2-2-5-5-5-5-1--1-1-1-|-
E|-3-3-3-3--3-3-6-6-6-6-2--2-2-2-|-
http://www.guitartabcreator.com
Guitar Tab Creator is intended to store guitar tab created through the tool. It currently does not support in-line text editing. Any text you place in here will be lost. If you need to comment on your tab, please use the "Tab Notes" section located below.