Apophys nummer 6

(/) Slide Up  (\) Slide Down  (h) Hammer On  (p) Pull Off  (b) Bend (r) Release (v) Vibrato
E|-----------------------------------------------------|-
B|-----------------------------------------------------|-
G|-----------------------------------------------------|-
D|-----------------------------------------------------|-
A|-----------------------------------------------------|-
E|-2-1-0-3-1-0-5-2-0-6-3-0-2-1-0-3-1-0-4-7h4-3-6h3-0-0-|-



E|-------------------------------------------------------|-
B|-------------------------------------------------------|-
G|-------------------------------------------------------|-
D|-------------------------------------------------5h6h8-|-
A|-------------------------------------------4h5h7-------|-
E|-2-1-0-3-1-0-5-2-0-6-3-0-2-1-0-3-1-0-3-3-3-------------|-



E|------------------------------------------|---------------------------------|-
B|------------------------------------------|---------------------------------|-
G|------------------------------------------|---------------------------------|-
D|------------------------------------------|---------------------------------|-
A|------------------------------------------|---------------------------------|-
E|-4-3-4-1-4-6-4-7-7-7-7--4-3-4-1-4-3-0-0-0-|-2-1-0-0-3-1-0-0-6h9-5h8-4-4-4-4-|-



E|--------------------------------------|---------------|-
B|--------------------------------------|---------------|-
G|--------------------------------------|---------------|-
D|--------------------------------------|---------------|-
A|-3---3-2---2-6---6-5---5-9----9-8---8-|-12-11-8-7-5-7-|-
E|---4-----3-----7-----6-----10-----9---|---------------|-



E|-------------------------------------------------------|-
B|-------------------------------------------------------|-
G|-------------------------------------------------------|-
D|-4-4-3-4-------------------4-4-3-4---------------------|-
A|---------5-5-5-5-5-5-5-5-5---------5-0-4-4-4-4-4-4-4-4-|-
E|-------------------------------------------------------|-



E|----------------------------------------------|-
B|----------------------------------------------|-
G|----------------------------------------------|-
D|----------------------------------------------|-
A|-4-3-2-5-4-2-4-3-2-5-4-2-4-3-2-5-4-2--8-----7-|-
E|-2-1-0-3-2-0-2-1-0-3-2-0-2-1-0-3-2-0--6-0-0-5-|-



E|-------------------------------------------------------------------------|-
B|-------------------------------------------------------------------------|-
G|-------------------------------------------------------------------------|-
D|-------------------------------------------------------------------------|-
A|------------------------------6-5-0---------------------6----------------|-
E|-5-2-1--1-2-1--1--2-1-0-5-2-1-------4--8-5-4--8-5-8-5-4----0-1-2-5-4-4-2-|-
http://www.guitartabcreator.com
Guitar Tab Creator is intended to store guitar tab created through the tool. It currently does not support in-line text editing. Any text you place in here will be lost. If you need to comment on your tab, please use the "Tab Notes" section located below.