Apophis track 1

(/) Slide Up  (\) Slide Down  (h) Hammer On  (p) Pull Off  (b) Bend (r) Release (v) Vibrato

A.

E|-----------------|-----------------|-----------------|-----------------|-
B|-----------------|-----------------|-----------------|-----------------|-
G|-----------------|-----------------|-----------------|-----------------|-
D|-7-5-4-8-4-4-7-5-|-7-5-4-8-4-4-7-5-|-7-5-4-8-4-4-7-5-|-7-5-4-4---------|-
A|-----------------|-----------------|-----------------|-----------------|-
E|-----------------|-----------------|-----------------|---------5-3-2-2-|-



E|-----------------|-----------------|--------------------|---------------------|-
B|-----------------|-----------------|--------------------|---------------------|-
G|-----------------|-----------------|--------------------|---------------------|-
D|-7-5-4-8-4-4-7-5-|-7-5-4-8-4-4-7-5-|-10-8-7-11-7-7-10-8-|-10-8-7-11-7-7-11-13-|-
A|-----------------|-----------------|--------------------|---------------------|-
E|-----------------|-----------------|--------------------|---------------------|-


B.

E|---------------------------------|-----------------------------------|-
B|---------------------------------|-----------------------------------|-
G|---------------------------------|-----------------------------------|-
D|-------------8-8-8-8-7-7-8-8-7-7-|-------------8-8-8-8-7-7-8-8-10-10-|-
A|---------------------------------|-----------------------------------|-
E|-5-3-2-6-3-2---------------------|-5-3-2-6-3-3-----------------------|-



E|-----------------------------------------------------------------|-
B|-----------------------------------------------------------------|-
G|-----------------------------------------------------------------|-
D|-------------8-8-8-8-7-7-8-8-7-7-6-6-6-6-------------------------|-
A|-----------------------------------------------------------------|-
E|-5-3-2-6-3-2-----------------------------4-4-4-4-2-3-2-3-5-3-2-3-|-



C(intro) C.

E|-----------------------------------------|-------------------------------------------------
B|-----------------------------------------|-------------------------------------------------
G|-----------------------------------------|-------------------------------------------------
D|-----------------7-7-8-8-----------6-5---|-----------------7-7-8-8---------4-4-5-5---------
A|---------------------------------4-4-3-5-|-------------------------------------------------
E|-2-2-3-3-6-6-3-3---------6-5-2-3-2-4-3-3-|-2-2-3-3-6-6-3-3---------6-5-2-3---------6-5-2-3-

C(outro)

E|-----------------------------------------------------|---------------------------------|-
B|-----------------------------------------------------|---------------------------------|-
G|-----------------------------------------------------|---------------------------------|-
D|-----------------------------------------------------|---------------------------------|-
A|-----------------------------4-4-4-4-3-3-3-3---------|---------------------------------|-
E|-2-2-3-3-6-6-3-3-2-2-3-3-2-2-----------------6-5-2-3-|-8-9-8-6-8-6-5-6-5-6-5-3-5-3-2-3-|-


D.

E|---------------------------|-
B|---------------------------|-
G|---------------------------|-
D|---------------------------|-
A|---------------------------|-
E|-1-2-2-3-2-2-2-2-2-2-2-2-1-|-


E.

E|-----------------------------------------------------------------------------------------|-
B|-----------------------------------------------------------------------------------------|-
G|-----------------------------------------------------------------------------------------|-
D|-----------------------------9-9-9-9-----------------------------------------------------|-
A|---9-9-9-9-9-9-10-10-9-9-7-7---------7-7-7-7-9-9-10-10-9-9-7-7-7-------------------------|-
E|-2---------------------------------------------------------------1-1-1-1-2-2-3-3-2-2-1-1-|-



E|---------------|-------------------------------------------------|---------------|-
B|---------------|-------------------------------------------------|---------------|-
G|---------------|-------------------------------------------------|---------------|-
D|-------6-4-4---|-----4-5-4-4-------------------------------------|-------6-5-5---|- Break
A|-4-4-4-4-3-3-4-|-------------------------2-2---------------------|-4-4-4-4-3-3-5-|-
E|-2-2-2-4-3-3-3-|-2-2---------2-2-2-2-3-2-----0-0-2-3-2-1-1-1-1-1-|-2-2-2-4-3-3-3-|-



E|---------------------------------------------------------------------|-----------------|-
B|---------------------------------------------------------------------|-----------------|-
G|---------------------------------------------------------------------|-----------------|-
D|-------------------------------9-9-9-9-------------------------------|-------6-5-5-----|-
A|-9-9-9-9-9-9-9-9-10-10-9-9-7-7---------7-7-7-7-9-9-10-10-9-9-8-8-8-8-|-4-4-4-4-3-3-5-5-|-
E|---------------------------------------------------------------------|-2-2-2-4-3-3-3-3-|-



E|-----------------------------------------|-----------------|-
B|-----------------------------------------|-----------------|-
G|---------------------------4-------------|-----------------|-
D|-4-4---------4-4-4-4-5-4-2---2-4-5-4-3-3-|-----------------|-
A|-----------------------------------------|-4-4-4-4---------|-
E|-----2-3-2-2-----------------------------|---------1-1-1-1-|-


F. F(1)

E|---------------------|-----------|---------|--------------------------------------
B|---------------------|-----------|---------|--------------------------------------
G|---------------------|-----------|---------|--------------------------------------
D|---------------------|-----------|---------|----------9----------8----------5-5---
A|-4-4-4-4---------2---|-3-3-3-3-4-|-4-4-4-4-|-9-10-9-7---9-10-9-7---9-10-9-7-------
E|-2-2-2-2-2-3-2-0---0-|-1-1-1-1-2-|-2-2-2-2-|--------------------------------------

F(dub)

E|-------------------------------|--
B|-------------------------------|--
G|-------------------------------|--
D|-----------11--10--10----------|--
A|--9--9--9--------------10--10--|--
E|-------------------------------|--
http://www.guitartabcreator.com
Guitar Tab Creator is intended to store guitar tab created through the tool. It currently does not support in-line text editing. Any text you place in here will be lost. If you need to comment on your tab, please use the "Tab Notes" section located below.