Hotel California Solo

(/) Slide Up  (\) Slide Down  (h) Hammer On  (p) Pull Off  (b) Bend (r) Release (v) Vibrato
E|---------------9/10---------------------------------------
B|--------10h12--------10h12----------7---------------------
G|--9h11----------------------9--7h9-----7------------------
D|------------------------------------------8--9h11p9p7--8--
A|----------------------------------------------------------
E|----------------------------------------------------------



E|---------------------------------------------10----------------
B|-------7-----------------7------------10h12------12------10\9--
G|--7h9-----7---------7h9-----7------------------------11--------
D|-------------9p7h9-------------9p7h9---------------------------
A|---------------------------------------------------------------
E|---------------------------------------------------------------



E|--7-----10/12--10--12p10----------------------------------10--------------------
B|-----7--------------------12---------15-----------------------------------------
G|------------------------------14/16------16\14--12--9h11------11p9\7-----7\6/7--
D|----------------------------------------------------------------------9---------
A|--------------------------------------------------------------------------------
E|--------------------------------------------------------------------------------



E|-----------------------------------------7-----------7------------------------
B|-------8--8p7-----8--8--8p7-----------7-----------7---------------------------
G|--7h9----------9-------------9--9/11--------9/11--------9/11\9--7h9--9h11-----
D|------------------------------------------------------------------------------
A|------------------------------------------------------------------------------
E|------------------------------------------------------------------------------



E|-----------7-----------7--------7--7--------7--------7------------------------
B|--------7-----------7---------------------------------------------------------
G|--9/11--------9/11--------9/11--------9/11-----9/11-----9/11\9--7h9--9/11/21--
D|------------------------------------------------------------------------------
A|------------------------------------------------------------------------------
E|------------------------------------------------------------------------------



E|--------------------------------------------------10-----------------
B|---------------------10/12--10--12p10------10h12------12--11--10--9--
G|--12/14--9h11--7-----------------------11----------------------------
D|------------------9--------------------------------------------------
A|---------------------------------------------------------------------
E|---------------------------------------------------------------------
http://www.guitartabcreator.com
Guitar Tab Creator is intended to store guitar tab created through the tool. It currently does not support in-line text editing. Any text you place in here will be lost. If you need to comment on your tab, please use the "Tab Notes" section located below.