Hecarim Rhythm

Intro Riff 1

E|----------------------------------------------------------------
B|----------------------------------------------------------------
G|----------------------------------------------------------------
D|----------------------------------------------------------------
A|----------------------------------------------------------------
E|--0--0--0--0--0--0--0--0--0--0--0--0--0--0--0--0--8--7--13--12--

Intro Riff Bridge

E|--------------------------------------------------------------
B|--------------------------------------------------------------
G|--------------------------------------------------------------
D|--------------------------------------------------------------
A|--------------------------------------------------------------
E|--0--0--0--0--0--0--0--0--0--0--0--0--0--0--0--0--8--7--5--7--

Intro Riff End

E|-------------------------------------------------------------------------------
B|-------------------------------------------------------------------------------
G|-------------------------------------------------------------------------------
D|-------------------------------------------------------------------------------
A|-------------------------------------------------------------------------------
E|--5--5--5--5--5--5--5--5--5--3--3--3--3--3--3--3--3--1----------------1--1--1--

Intro Riff Outro

E|----------------------------------------------------------------------------------
B|----------------------------------------------------------------------------------
G|----------------------------------------------------------------------------------
D|----------------------------------------------------------------------------------
A|----------------------------------------------------------------------------------
E|--5--5--5--5--5--5--5--5--3--3--3--3--3--3--3--3--1----------------0--------------

Chorus

E|---------------------------------------------
B|---------------------------------------------
G|---------------------------------------------
D|--10------9------2------5------3-------2-----
A|--10--X8--9--X8--2--X8--5--X8--3--X16--2--X16
E|--8-------7------0------3------1-------0-----

E|---------------------------------------------
B|---------------------------------------------
G|---------------------------------------------
D|--10------9------2------5------7-------3--9--
A|--10--X8--9--X8--2--X8--5--X8--7--X16--3--9--
E|--8-------7------0------3------5-------1--7--

Solo Rhythm/Outro

E|-----------------------
B|-----------------------
G|-----------------------
D|--2-------10--9--5--3--
A|--2--X16--10--9--5--3--
E|--0-------8---7--3--1-- X3

E|--------------------------
B|--------------------------
G|--------------------------
D|--2-------10--9--5--7--9--
A|--2--X16--10--9--5--7--9--
E|--0-------8---7--3--5--7--

Interlude

E|------------------------
B|------------------------
G|------------------------
D|--9------9------10------
A|--7--X8--8--X6--8---X2--
E|------------------------ X9

E|----------------
B|----------------
G|----------------
D|--9------9------
A|--7--X8--8--X8--
E|----------------

Chorus 2

E|--------------------------------------------------------------------
B|--------------------------------------------------------------------
G|----------------------------------------------9------10------9------
D|--10------9------2------5------3-------2------9------10------9------
A|--10--X8--9--X8--2--X8--5--X8--3--X16--2--X8--7--X4--8---X2--7--X2--
E|--8-------7------0------3------1-------0----------------------------

E|---------------------------------------------
B|---------------------------------------------
G|---------------------------------------------
D|--10------9------2------5------7-------3--9--
A|--10--X8--9--X8--2--X8--5--X8--7--X16--3--9--
E|--8-------7------0------3------5-------1--7--

Intro Riff 1 X3
Intro Riff Bridge
Intro Riff End 1
Intro Riff 1 X2
Intro Riff Bridge
Intro Riff Outro
Chorus
Solo Rhythm/Outro
Interlude
Chorus 2
Solo Rhythm/Outro
http://www.guitartabcreator.com
Guitar Tab Creator is intended to store guitar tab created through the tool. It currently does not support in-line text editing. Any text you place in here will be lost. If you need to comment on your tab, please use the "Tab Notes" section located below.