Emotional Guitar Solo

(/) Slide Up  (\) Slide Down  (h) Hammer On  (p) Pull Off  (b) Bend (r) Release (v) Vibrato
E|------13--15--16--15--13----------13--15--16--18--16--15----------13--15--16--18--20--21--20--18--
B|--13----------------------13--12--------------------------12--11----------------------------------
G|--------------------------------------------------------------------------------------------------
D|--------------------------------------------------------------------------------------------------
A|--------------------------------------------------------------------------------------------------
E|--------------------------------------------------------------------------------------------------



E|--20--18--16--18--16--15--13--------------------
B|------------------------------13--12--11--9-----
G|---------------------------------------------10b
D|------------------------------------------------
A|------------------------------------------------
E|------------------------------------------------
http://www.guitartabcreator.com
Guitar Tab Creator is intended to store guitar tab created through the tool. It currently does not support in-line text editing. Any text you place in here will be lost. If you need to comment on your tab, please use the "Tab Notes" section located below.