wertazzz

(/) Slide Up  (\) Slide Down  (h) Hammer On  (p) Pull Off  (b) Bend (r) Release (v) Vibrato


E|--------------|--------------------------------------------|--
B|--------------|--------------------------------------------|--
G|--------6--9--|--------------------------------------------|--
D|--3--6--7--6--|--------------------------------------------|--
A|--3--6--5--5--|--------------5p3--------6p3--------5p3--3--|--
E|--3--6--------|--3--3--3--3-------3--3-------3--3-------3--|--



E|--------------------------------------------|--------------------------------------------|--
B|--------------------------------------------|--------------------------------------------|--
G|--------------------------------------------|--------------------------------------------|--
D|-----------------------------------------5--|-----------------------------------------3--|--
A|--------------5p3--------6p3--------5p3-----|--------------5p3--------6p3--------5p3--3--|--
E|--3--3--3--3-------3--3-------3--3----------|--3--3--3--3-------3--3-------3--3-------3--|--



E|------------------------------------------------|--
B|------------------------------------------------|--
G|------------------------------------3--5--7--5--|--
D|------------------------------------------------|--
A|--------------5p3--------6p3--------1--3--5--3--|--
E|--3--3--3--3-------3--3-------3--3--------------|--
http://www.guitartabcreator.com
Guitar Tab Creator is intended to store guitar tab created through the tool. It currently does not support in-line text editing. Any text you place in here will be lost. If you need to comment on your tab, please use the "Tab Notes" section located below.