Original Song 1 (Lead Riff)

(/) Slide Up  (\) Slide Down  (h) Hammer On  (p) Pull Off  (b) Bend (r) Release (v) Vibrato

E|---------------------------|---------------------------|--
B|---------------------------|---------------------------|--
G|---------------------------|---------------------------|--
D|---------------------7-----|---------------------------|--
A|--7--7--9--7--10--7-----7--|--7--7--9--7--10--7--9--7--|--
E|---------------------------|---------------------------|--



E|----------------------------------------------------|--
B|----------------------------------------------------|--
G|----------------------------------------------------|--
D|---------------------7-----9-----7------------------|--
A|--7--7--9--7--10--7-----7-----7-----7--10--7--9--7--|--
E|----------------------------------------------------|--



E|--------------------------|--------------------------|--
B|--------------------------|--------------------------|--
G|--------------------------|--------------------------|--
D|--------5-----4-----5-----|--------5-----4-----5-----|--
A|--3--3-----3-----3-----3--|--3--3-----3-----3-----3--|--
E|--------------------------|--------------------------|--



E|--------------------------|--------------------------|--
B|--------------------------|--------------------------|--
G|--------------------------|--------------5-----------|--
D|--------7-----5-----7-----|--------7-----------9-----|--
A|--5--5-----5-----5-----5--|--5--5-----5-----5-----5--|--
E|--------------------------|--------------------------|--
http://www.guitartabcreator.com
Guitar Tab Creator is intended to store guitar tab created through the tool. It currently does not support in-line text editing. Any text you place in here will be lost. If you need to comment on your tab, please use the "Tab Notes" section located below.