nnnnlllløøøøø

(/) Slide Up  (\) Slide Down  (h) Hammer On  (p) Pull Off  (b) Bend (r) Release (v) Vibrato


E|------------------------------|--------------------------|--------------------------|--
B|------------------------------|--------------------------|--------------------------|--
G|---------9-------------9------|--------7-----------7-----|--------5-----------5-----|--
D|-----10-----10-----10-----10--|-----9-----9-----9-----9--|-----7-----7-----7-----7--|--
A|--0-------------0-------------|--0-----------0-----------|--0-----------0-----------|--
E|------------------------------|--------------------------|--------------------------|--



E|---------------------------|--|--
B|--------------------5h6h8--|--|--
G|--------7------------------|--|--
D|-----5-----5-----5---------|--|--
A|--0-----------0------------|--|--
E|---------------------------|--|--
http://www.guitartabcreator.com
Guitar Tab Creator is intended to store guitar tab created through the tool. It currently does not support in-line text editing. Any text you place in here will be lost. If you need to comment on your tab, please use the "Tab Notes" section located below.