moff poff

(/) Slide Up  (\) Slide Down  (h) Hammer On  (p) Pull Off  (b) Bend (r) Release (v) Vibrato


x2 then guitar 2 comes in
E|--------------|--------------|--------------|--------------|--
B|--------------|--------------|--------------|--------------|--
G|--7--7--7--6--|--7--7--7--6--|--7--7--7--6--|--7--9--7--6--|--
D|--------------|--------------|--------------|--------------|--
A|--------------|--------------|--------------|--------------|--
E|--------------|--------------|--------------|--------------|--



E|--------------|--------------|--------------|--------------|--
B|--------------|--------------|--------------|--------------|--
G|--7--7--7--7--|--3--3--3--3--|--------------|--------------|--
D|--7--7--7--7--|--3--3--3--3--|--5--5--5--5--|--7--7--7--7--|--
A|--5--5--5--5--|--1--1--1--1--|--5--5--5--5--|--7--7--7--7--|--
E|--------------|--------------|--3--3--3--3--|--5--5--5--5--|--
http://www.guitartabcreator.com
Guitar Tab Creator is intended to store guitar tab created through the tool. It currently does not support in-line text editing. Any text you place in here will be lost. If you need to comment on your tab, please use the "Tab Notes" section located below.