kliswn

(/) Slide Up  (\) Slide Down  (h) Hammer On  (p) Pull Off  (b) Bend (r) Release (v) Vibrato


E|--------------------------------------------------|--
B|--5--------5--------5-----6--------6--------6-----|--
G|-----5--------5--------5-----5--------5--------5--|--
D|--------5--------5--------------3--------3--------|--
A|--------------------------------------------------|--
E|--------------------------------------------------|--



E|--------------------------------------------7-----|--
B|--8--------8--------8-----7--------7--------------|--
G|-----9--------9--------9-----7--------7--------7--|--
D|--------9--------9--------------7--------7--------|--
A|--------------------------------------------------|--
E|--------------------------------------------------|--



E|--------------------------------------------------|--
B|--5--------5--------5-----3--------3--------3-----|--
G|-----5--------5--------5-----4--------4--------4--|--
D|--------5--------5--------------5--------5--------|--
A|--------------------------------------------------|--
E|--------------------------------------------------|--



E|--------------------------------------------------|--
B|--5--------5--------5-----7--------7--------7-----|--
G|-----5--------5--------5-----7--------7--------7--|--
D|--------5--------5--------------7--------7--------|--
A|--------------------------------------------------|--
E|--------------------------------------------------|--



E|-----------------------------------------|--
B|--------3-----------3-----------3-----3--|--
G|-----4-----4-----4-----4-----4-----4--4--|--
D|--5-----------5-----------5-----------5--|--
A|-----------------------------------------|--
E|-----------------------------------------|--
http://www.guitartabcreator.com
Guitar Tab Creator is intended to store guitar tab created through the tool. It currently does not support in-line text editing. Any text you place in here will be lost. If you need to comment on your tab, please use the "Tab Notes" section located below.