I AM I - Silent Genocide

(/) Slide Up  (\) Slide Down  (h) Hammer On  (p) Pull Off  (b) Bend (r) Release (v) Vibrato


E|-----------------------|-----------------------------|--
B|--10------------12b15--|--13-------------------------|--
G|------7--9--10---------|------10--12--14--12--10--9--|--
D|-----------------------|-----------------------------|--
A|-----------------------|-----------------------------|--
E|-----------------------|-----------------------------|--



E|-----------------------|--15b17--15--------------|--
B|--10------------12b15--|-------------10--11--13--|--
G|------7--9--10---------|-------------------------|--
D|-----------------------|-------------------------|--
A|-----------------------|-------------------------|--
E|-----------------------|-------------------------|--



E|--13--0--12--0--10--0--8--0--6--0--5--0--3--0--8--0--5--|--
B|--------------------------------------------------------|--
G|--------------------------------------------------------|--
D|--------------------------------------------------------|--
A|--------------------------------------------------------|--
E|--------------------------------------------------------|--
http://www.guitartabcreator.com
Guitar Tab Creator is intended to store guitar tab created through the tool. It currently does not support in-line text editing. Any text you place in here will be lost. If you need to comment on your tab, please use the "Tab Notes" section located below.