hungin original

(/) Slide Up  (\) Slide Down  (h) Hammer On  (p) Pull Off  (b) Bend (r) Release (v) Vibrato


E|-----------------------------------------------------|-----
B|-----------------------------------------------------|-----
G|-----------------------------------------------------|-----
D|-----------------------------------------------------|-----
A|--------9-----10-----12-----------9-----10-----9-----|-----
E|--0--0-----0------0------0--0--0-----0------0-----0--|-----



E|-------------------------------------------------------|--
B|-------------------------------------------------------|--
G|-------------------------------------------------------|--
D|-------------------------------------------------------|--
A|--------9-----10-----12-----14-----12-----10-----9-----|--
E|--0--0-----0------0------0------0------0------0-----0--|--



E|--------------------------------------------------|--
B|--------------------------------------------------|--
G|--------------------------------------------------|--
D|--------5-----4-----5-----------5-----4-----------|--
A|--3--3-----3-----3-----3--3--3-----3-----3--5--3--|--
E|--------------------------------------------------|--



E|--------------------------------------------------|--
B|--------------------------------------------------|--
G|--------------------------------------5-----------|--
D|--------7-----5-----7-----------7-----------9-----|--
A|--5--5-----5-----5-----5--5--5-----5-----5-----5--|--
E|--------------------------------------------------|--



E|-----------------------------------------------------|--
B|-----------------------------------------------------|--
G|-----------------------------------------------------|--
D|-----------------------------------------------------|--
A|--------9-----10-----12-----------9-----10-----9-----|--
E|--0--0-----0------0------0--0--0-----0------0-----0--|--



E|-------------------------------------------------------|--
B|-------------------------------------------------------|--
G|-------------------------------------------------------|--
D|-------------------------------------------------------|--
A|--------9-----10-----12-----14-----12-----10-----9-----|--
E|--0--0-----0------0------0------0------0------0-----0--|--



E|--------------------------------------------------|--
B|--------------------------------------------------|--
G|--------------------------------------------------|--
D|--------5-----4-----5-----------5-----4-----------|--
A|--3--3-----3-----3-----3--3--3-----3-----3--5--4--|--
E|--------------------------------------------------|--



E|----------------------------------|--
B|----------------------------------|--
G|----------------------------------|--
D|--------7-----5-----7-----0/7--5~-|--
A|--5--5-----5-----5-----5--0/8--7~--|--
E|----------------------------------|--
http://www.guitartabcreator.com
Guitar Tab Creator is intended to store guitar tab created through the tool. It currently does not support in-line text editing. Any text you place in here will be lost. If you need to comment on your tab, please use the "Tab Notes" section located below.