hobli bobb

(/) Slide Up  (\) Slide Down  (h) Hammer On  (p) Pull Off  (b) Bend (r) Release (v) Vibrato
E|--------------------------------------------------------------------------------|-
B|--------------------------------------------------------------------------------|-
G|--------------------------------------------------------------------------------|-
D|-------12-0-10-0-8-0-10-0-8-0-7-0-8-0-------12-0-10-0-8-0-10-10-12-0-13-0-12v-v-|-
A|-12-12--------------------------------13-13---------------8--8------------------|-
E|-10-10--------------------------------11-11-------------------------------------|-
. . . . . . . . . . . .


E|--------------------------------------------------------------------------------|-
B|--------------------------------------------------------------------------------|-
G|--------------------------------------------------------------------------------|-
D|-------12-0-10-0-8-0-10-0-8-0-7h8-7h8-------12-0-10-0-8-0-10-10-12-0-13-0-15v-v-|-
A|-12-12--------------------------------13-13---------------8--8------------------|-
E|-10-10--------------------------------11-11-------------------------------------|-
. . . . . . . . . .


http://www.guitartabcreator.com
Guitar Tab Creator is intended to store guitar tab created through the tool. It currently does not support in-line text editing. Any text you place in here will be lost. If you need to comment on your tab, please use the "Tab Notes" section located below.