goggety original version

(/) Slide Up  (\) Slide Down  (h) Hammer On  (p) Pull Off  (b) Bend (r) Release (v) Vibrato

x2 x2
E|-------------------------------------|-------------------------------------|-
B|-------------------------------------|-------------------------------------|-
G|-------------------------------------|-------------------------------------|- x2
D|-----3-----5-----7-----5-----7---8---|-----2-----3-----5-----3-----2---0---|-
A|-0-0---0-0---0-0---0-0---0-0---0---0-|-1-1---1-1---1-1---1-1---1-1---1---1-|-
E|-------------------------------------|-------------------------------------|-



E|-------------------------------------|-------------------------------------|-
B|-------------------------------------|-------------------------------------|-
G|---------------------------------5h7-|-----------------2---------------2p0-|-
D|-----5-----7-----8-----7-----8-------|-----3-----5-----------5-----3-------|- repeat as many times
A|-3-3---3-3---3-3---3-3---3-3---3-----|-1-1---1-1---1-1---1-1---1-1---1-----|- you like :)
E|-------------------------------------|-------------------------------------|-
http://www.guitartabcreator.com
Guitar Tab Creator is intended to store guitar tab created through the tool. It currently does not support in-line text editing. Any text you place in here will be lost. If you need to comment on your tab, please use the "Tab Notes" section located below.