diddeli daddeli

(/) Slide Up  (\) Slide Down  (h) Hammer On  (p) Pull Off  (b) Bend (r) Release (v) Vibrato


E|------------------------------------------------------------|--
B|------------------------------------------------------------|--
G|----------------9h11--9-------------------------------------|--
D|--9~-9--11--12-----------12--11h12p11--9--7~-5/11--7/12--9~-|--
A|------------------------------------------------------------|--
E|------------------------------------------------------------|--



E|------------------------------------------------------------|--
B|------------------------------------------------------------|--
G|--------------9h11--9---------------------------------------|--
D|---9--11--12-----------12--11h12p11--9--7~-5/14--12--11--9~-|--
A|------------------------------------------------------------|--
E|------------------------------------------------------------|--
http://www.guitartabcreator.com
Guitar Tab Creator is intended to store guitar tab created through the tool. It currently does not support in-line text editing. Any text you place in here will be lost. If you need to comment on your tab, please use the "Tab Notes" section located below.