chink

(/) Slide Up  (\) Slide Down  (h) Hammer On  (p) Pull Off  (b) Bend (r) Release (v) Vibrato
E|--3--3--1--1--|--3--3--1--1--|--1--1--1--1--|--1--1--1--1--|--
B|--3--3--3--3--|--3--3--3--3--|--1--1--1--1--|--1--1--1--1--|--
G|--2--2--2--2--|--2--2--2--2--|--3--3--3--3--|--3--3--3--3--|--
D|--0--0--0--0--|--0--0--0--0--|--3--3--3--3--|--3--3--3--3--|--
A|--0--0--0--0--|--0--0--0--0--|--1--1--1--1--|--1--1--1--1--|--
E|--------------|--------------|--------------|--------------|--



E|--------------|--------------|--0--0--0--0--|--0--0--0--0--|--
B|--6--6--6--6--|--5--5--6--6--|--1--1--1--1--|--1--1--1--1--|--
G|--5--5--5--5--|--5--5--5--5--|--0--0--0--0--|--0--0--0--0--|--
D|--3--3--3--3--|--3--3--3--3--|--2--2--2--2--|--2--2--2--2--|--
A|--3--3--3--3--|--3--3--3--3--|--3--3--3--3--|--3--3--3--3--|--
E|--------------|--------------|--------------|--------------|--



E|--------3--------3--------------------------------3-----3p1-----1--|--
B|--------3--------3--------------------------------3-----3-3-----3--|--
G|-------------------------------------------------------------------|--
D|--0--0-----0--0-----0--0--0--0--0--0--0--0--0--0-----0-------0-----|--
A|-------------------------------------------------------------------|--
E|-------------------------------------------------------------------|--



E|--------------------------1--1--3--------3--|--
B|--------------------------3--3--3--------3--|--
G|--------------------------------------------|--
D|--0--0--0--0--0--0--0--0-----------0--0-----|--
A|--------------------------------------------|--
E|--------------------------------------------|--



E|--1--------1-----------------------------1--------1--|--
B|--1--------1-----------------------------1--------1--|--
G|-----------------------------------------------------|--
D|-----3--3-----3--3--3--3--3--3--3--3--3-----3--3-----|--
A|-----------------------------------------------------|--
E|-----------------------------------------------------|--



E|--------------------1--1--3--------3--
B|--------------------1--1--3--------3--
G|--------------------------------------
D|--3--3--3--3--3--3-----------0--0-----
A|--------------------------------------
E|--------------------------------------

Chorus (med vreng....)

E|----------------|--
B|----------------|--
G|----------------|--
D|--3--0--3--0/2--|--
A|--1--0--1--0-3--|--
E|----------------|--
http://www.guitartabcreator.com
Guitar Tab Creator is intended to store guitar tab created through the tool. It currently does not support in-line text editing. Any text you place in here will be lost. If you need to comment on your tab, please use the "Tab Notes" section located below.