Simple Riff

(/) Slide Up  (\) Slide Down  (h) Hammer On  (p) Pull Off  (b) Bend (r) Release (v) Vibrato
E|-0-----0-----0-----0-----0-----0-----0-|---------------------------------
B|---0-----0-----0-----0-----0-----0---0-|---------------------------------
G|-----7-----7-----5-----3-----2-----0-0-|---------------------------------
D|---------------------------------------|---------------------------------
A|---------------------------------------|---------------------------------
E|---------------------------------------|-3h6h4h7h3h6h4h7h3h6h4h7h3h6h4h7-



E|-----------|-----------------------------------------------------------------------------------------------------------------------------
B|-----------|-----------------------------------------------------------------------------------------------------------------------------
G|-----------|-----------------------------------------------------------------------------------------------------------------------------
D|-----------|-----------------------------------------------------------------------------------------------------------------------------
A|-----------|--------------------------------------------------------------------------------------------------------------------------5--
E|--3h6h4h7--|--0--0--0--0--0--5--7--0--0--0--0--4--6--0--0--0--6--8--0--0--0--0--5--7--0--0--0--0--4--6--0--0--0--0--0--6--8--0--0--0--7--



E|--
B|--
G|--
D|--
A|--
E|--
http://www.guitartabcreator.com
Guitar Tab Creator is intended to store guitar tab created through the tool. It currently does not support in-line text editing. Any text you place in here will be lost. If you need to comment on your tab, please use the "Tab Notes" section located below.