Random

(/) Slide Up  (\) Slide Down  (h) Hammer On  (p) Pull Off  (b) Bend (r) Release (v) Vibrato

E|----------------------0--|----------------|-------------------------0--|--------------|--
B|----------------1--------|----1-----------|-------------------1--------|----1---------|--
G|--0h2--2--2--2-----2-----|-----------2----|-----0h2--2--2--2-----2-----|---------2----|--
D|--3----------------------|----------------|-----3----------------------|--------------|--
A|-------------------------|----------------|----------------------------|--------------|--
E|-------------------------|----------------|----------------------------|--------------|--



E|--5--3-------------|--------------2--------|--------------0--------|--------------0--------|--
B|--------3--1--1----|-----------2-----2-----|-----------2-----2-----|-----------0-----0-----|--
G|-------------------|-----2--------------2--|-----1--------------1--|-----1--------------1--|--
D|-------------------|--------0--------------|--------2--------------|--------1--------------|--
A|-------------------|--0--------------------|--0--------------------|--2--------------------|--
E|-------------------|-----------------------|-----------------------|-----------------------|--



E|--------------0--------|--------------2--------|--------------0--------|--------------0--------|-----
B|-----------1-----1-----|-----------2-----2-----|-----------2-----2-----|-----------1-----1-----|-----
G|-----2--------------2--|-----2--------------2--|-----1--------------1--|-----2--------------2--|-----
D|--------3--------------|--------0--------------|--------2--------------|--------3--------------|-----
A|--0--------------------|--0--------------------|--0--------------------|--0--------------------|-----
E|-----------------------|-----------------------|-----------------------|-----------------------|-----



E|--------------0--------|--
B|-----------0-----0-----|--
G|-----1--------------1--|--
D|--------1--------------|--
A|--2--------------------|--
E|-----------------------|--
http://www.guitartabcreator.com
Guitar Tab Creator is intended to store guitar tab created through the tool. It currently does not support in-line text editing. Any text you place in here will be lost. If you need to comment on your tab, please use the "Tab Notes" section located below.