godfather theme

(/) Slide Up  (\) Slide Down  (h) Hammer On  (p) Pull Off  (b) Bend (r) Release (v) Vibrato

E|------10--13--12--10--13--10--12--10------------------10--13--12--10--13--10--12------------
B|--10----------------------------------------------10------------------------------10--9--8--
G|--------------------------------------11--13--10--------------------------------------------
D|--------------------------------------------------------------------------------------------
A|--------------------------------------------------------------------------------------------
E|--------------------------------------------------------------------------------------------



E|--------------12-----------------------------------------------------------10--10--9--8--12--
B|------11--14----------11--14/15v--10h11--10----/13--10--11--10-------------------------------
G|--12--------------12--------------------------------------------10---------------------------
D|--------------------------------------------------------------------11/12--------------------
A|---------------------------------------------------------------------------------------------
E|---------------------------------------------------------------------------------------------



E|--------------------------------------
B|--13----------10--10--9--8--11--8/10--
G|------15--14--------------------------
D|--------------------------------------
A|--------------------------------------
E|--------------------------------------
http://www.guitartabcreator.com
Guitar Tab Creator is intended to store guitar tab created through the tool. It currently does not support in-line text editing. Any text you place in here will be lost. If you need to comment on your tab, please use the "Tab Notes" section located below.