fur elise

(/) Slide Up  (\) Slide Down  (h) Hammer On  (p) Pull Off  (b) Bend (r) Release (v) Vibrato


E|-12-11-12-11-12-7-10-8------------5-7b7---------7-8-------12-11-12-11-12-
B|-----------------------10-------5-------------6--------------------------
G|------------------------------5-------------6-----------9----------------
D|----------------------------7-------------6-----------7------------------
A|--------------------------7-------------7-----------7--------------------
E|-------------------------------------------------------------------------



E|-7-10-9------------5-7-------8-7-5v-----7-8-10-12-----7-8-10-12---------13-12-10-
B|--------10-------5----------------------------------------------------8----------
G|---------------5-----------9-----------------------------------------------------
D|-------------7-----------7------------7-------------7--------------10------------
A|-----------7-----------7------------7-------------7-------------10---------------
E|---------------------------------------------------------------------------------



E|---------12-10-8v-------10-8-7v---------12-12-21-11-12-11-12-11-12-11-12-11-12-7-11-8----
B|--------------------------------------------------------------------------------------10-
G|------10--------------9-------------9-9--------------------------------------------------
D|----9---------------7--------------------------------------------------------------------
A|-10---------------7-------------7-7------------------------------------------------------
E|-----------------------------------------------------------------------------------------



E|-8-8-8-8-13v-12-12-10v-18-17-17-15----17----------15-14-14v-15-14-12-14-15----------12-13----
B|-----------------------------------18----17-15-----------------------------15-16-17----------
G|-----------------------------------------------17-----------------------------------------14-
D|---------------------------------------------------------------------------------------------
A|---------------------------------------------------------------------------------------------
E|---------------------------------------------------------------------------------------------



E|----15-12-13----15----15----15----20-
B|-13----------13----------------------
G|-------------------14----16----17----
D|-------------------------------------
A|-------------------------------------
E|-------------------------------------
http://www.guitartabcreator.com
Guitar Tab Creator is intended to store guitar tab created through the tool. It currently does not support in-line text editing. Any text you place in here will be lost. If you need to comment on your tab, please use the "Tab Notes" section located below.