all through the night

(/) Slide Up  (\) Slide Down  (h) Hammer On  (p) Pull Off  (b) Bend (r) Release (v) Vibrato

E|--5--4--2--5--7--5--4\2--0--2--4--4--5-----------------------------------------
B|-------------------------------------------------------------------------------
G|-------------------------------------------------------------------------------
D|-------------------------------------------------------------------------------
A|-------------------------------------------------------------------------------
E|----------------------------------------5--4--2--5--7--5--4--2--0--2--4--4--7--



E|-------------------------------------------------------5--4--2--5--7--5--4\2--0--2--4--4--5--
B|---------------------------------------------------------------------------------------------
G|--------------2--0---------------------------------------------------------------------------
D|--3--2--3--5--------3--2-----3--2--0-----2--0------------------------------------------------
A|--------------------------3-----------3--------3--2b0----------------------------------------
E|---------------------------------------------------------------------------------------------



E|--12--11--12--14--16--14--12--11--12--11--9--7--11--9--7--6v--7--6--4--7--9--7--6--4--2--4--6--6--7--
B|-----------------------------------------------------------------------------------------------------
G|-----------------------------------------------------------------------------------------------------
D|-----------------------------------------------------------------------------------------------------
A|-----------------------------------------------------------------------------------------------------
E|-----------------------------------------------------------------------------------------------------
http://www.guitartabcreator.com
Guitar Tab Creator is intended to store guitar tab created through the tool. It currently does not support in-line text editing. Any text you place in here will be lost. If you need to comment on your tab, please use the "Tab Notes" section located below.