fur elise beethoven electris re-make

(/) Slide Up  (\) Slide Down  (h) Hammer On  (p) Pull Off  (b) Bend (r) Release (v) Vibrato
E|--12--11--12--11--12--7--10--8------------------5--7b0-----------7--8--
B|--------------------------------10-----------5----------------9--------
G|------------------------------------------5----------------------------
D|---------------------------------------7-------------------6-----------
A|------------------------------------7-------------------7--------------
E|-----------------------------------------------------------------------



E|-----------12--11--12--11--12--7--10--8------------------5--------8--7--5--
B|-----------------------------------------10-----------5--------------------
G|--------9------------------------------------------5-----------------------
D|-----7------------------------------------------7--------------6-----------
A|--7------------------------------------------7--------------7--------------
E|---------------------------------------------------------------------------



E|--------7--8--10b12--------8-----12--11--9-------------12--10--8--
B|------------------------------8-----------------------------------
G|---------------------------------------------------10-------------
D|-----7------------------7-----------------------9-----------------
A|--7------------------7----------------------10--------------------
E|------------------------------------------------------------------
http://www.guitartabcreator.com
Guitar Tab Creator is intended to store guitar tab created through the tool. It currently does not support in-line text editing. Any text you place in here will be lost. If you need to comment on your tab, please use the "Tab Notes" section located below.