Stop the Druids Guitar Tab

(/) Slide Up  (\) Slide Down  (h) Hammer On  (p) Pull Off  (b) Bend (r) Release (v) Vibrato


E|-------0----------------------------------------------------------------------------------------
B|-------0----------------------------------------------------------------------------------------
G|-------0--------9-----------5--------7-----------------------------9--------12--------11--------
D|-------0--------9-----------5--------7--------7--------5--5--------9--------12--------11--------
A|-------0--------7-----------3--------5--------7--------5--5--------7--------10--------9---------
E|--7b9--0--0--0--0--0--0--0-----0--0-----0--0--5--0--0--3--2--0--0-----0--0------0--0------0--0--



E|------------------------------------------------------------------------------------------------
B|------------------------------------------------------------------------------------------------
G|-7-----9-----9-----5-----7-------------------9-----10-----9-----7-----9-------------------------
D|-7-----9-----9-----5-----7-----7-----5-5-----9-----10-----9-----7-----9-12-12-12-12-12-12-12-12-
A|-5-----7-----7-----3-----5-----7-----5-5-----7-----8------7-----5-----7-12-12-12-12-12-12-12-12-
E|---0-0-0-0-0-0-0-0---0-0---0-0-5-0-0-3-2-0-0---0-0----0-0---0-0---0-0-0-10-0--10-0--10-0--10-0--



E|-----------------------------------------------------------------------------
B|-----------------------------------------------------------------------------
G|--------9--------9--------9-----9-----------------9--------9--------9-----9--
D|--2-----9--------9--------9-----9--5--4--3--2-----9--------9--------9-----9--
A|--2-----7--------7--------7-----7--5--4--3--2-----7--------7--------7-----7--
E|--0--0--0--0--0--0--0--0--0--0--0--3--2--1--0--0--0--0--0--0--0--0--0--0--0--



E|---------------------------------------------------------------------
B|---------------------------------------------------------------------
G|---------------------------------------------------------------------
D|--2--4--5--7--------------------------------------------8--9---------
A|--2--4--5--7--------------------------------------------8--9--5h6h7--
E|--0--2--3--5--5--5--5--5--5--5--5--5--5--5--5--5--5--5--6--7---------



E|-----------------------------------------------------------------------------------------------
B|-----------------------------------------------------------------------------------------------
G|--9--------9--------9-----12--------12--------12-----7--------7--------7-----------------------
D|--9--------8--------9-----12--------11--------12-----7--------6--------7-----7--7--7--7--5--4--
A|--7--------7--------7-----10--------10--------10-----5--------5--------5-----7--7--7--7--5--4--
E|--0--0--0--0--0--0--0--0------0--0------0--0------0-----0--0-----0--0-----0--5--5--5--5--3--2--



E|--------
B|--------
G|--------
D|--------
A|--------
E|--------
http://www.guitartabcreator.com
Guitar Tab Creator is intended to store guitar tab created through the tool. It currently does not support in-line text editing. Any text you place in here will be lost. If you need to comment on your tab, please use the "Tab Notes" section located below.