Holcomb Homicide Guitar Tab

(/) Slide Up  (\) Slide Down  (h) Hammer On  (p) Pull Off  (b) Bend (r) Release (v) Vibrato


E|--------------------------------------------------------------------------------------
B|--------------------------------------------------------------------------------------
G|-----4--------------------------------------------------------------------------------
D|--4--4--2--4--------------------------4--3--------------------------------------------
A|--4--2--2--4--4--------3--------4-----------4--3-----------4--------3--------4--------
E|--2-----0--2--2--2--2--2--2--2--2--2--------------5--4--3--2--2--2--2--2--2--2--2-----



E|-----------------------------------------------------------------------------------------------
B|-----------------------------------------------------------------------------------------------
G|-----------------------------------------------------------------------------------------------
D|-----------------------------------------------4--3-----------------------------------------5--
A|--4--5--7-----------4--4--------3--------4-----------4--3-----------4--------2--------4-----3--
E|-----------4--5--7-----2--2--2--2--2--2--2--2--------------5--4--3--2--2--2--0--0--0--2--2-----



E|-----------------
B|-----------------
G|-----------------
D|--------5--5-----
A|--3--3--3--3--5--
E|--------------2--



E|---------------------------------------------------------------------------
B|---------------------------------------------------------------------------
G|---------------------------------------------------------------------------
D|---------------------------------------------------------------------------
A|-10-----9-----10-----12-----10-9-12-------11-------12-------14-------12-11-
E|-8--8-8-8-8-8-8--8-8-8--8-8-8--8-10-10-10-10-10-10-10-10-10-10-10-10-10-10-



E|-----------------------------------------------------------------------------
B|-----------------------------------------------------------------------------
G|--------------------------------------4--------4--7--------7--7--------------
D|-----4--------4--------7--4--------0--4--------4--7--------7--7--------7--6--
A|--0--4--------4--------7--4--------0--2--2--2--2--4--4--4--4--5--5--5--7--6--
E|--0--2--2--2--2--2--2--5--2--2--2--------------------------------------5--4--
http://www.guitartabcreator.com
Guitar Tab Creator is intended to store guitar tab created through the tool. It currently does not support in-line text editing. Any text you place in here will be lost. If you need to comment on your tab, please use the "Tab Notes" section located below.