Hard Rock Rapture Guitar Tab

(/) Slide Up  (\) Slide Down  (h) Hammer On  (p) Pull Off  (b) Bend (r) Release (v) Vibrato


E|------------------------------------------------------------------------------------------------
B|------------------------------------------------------------------------------------------------
G|-----------------------------------------------9--7---------------------------------------------
D|--------5--------7--9--12--11--9--7--9--12--9--9--7--7--8--9--12--9--12--11--9--7--9--12--9--9--
A|-----5--------7-----9--12--11--9--7--9--12--9--7--5--7--8--9--12--9--12--11--9--7--9--12--9--9--
E|--3--------5--------7--10--9---7--5--7--10--7--------5--6--7--10--7--10--9---7--5--7--10--7--7--



E|-----------------------------------------------------------------------
B|-----------------------------------------------------------------------
G|-----------------------------------------------------------------------
D|--------5--------7--9--------------------------------------------------
A|-----5--------7-----9--------9-----------10-----------11-----------12--
E|--3--------5--------7--7--7-----7--7--7------7--7--7------7--7--7------



E|--------------------------------------------------
B|--------------------------------------------------
G|--------------------------------------------------
D|--------------------------------------------------
A|--9--9--9--9--9--9--10--9--9--9--11--9--9--9--12--
E|--7--7--7--7--7--7--7---7--7--7--7---7--7--7--7---



E|--------------------------------------------------------------
B|--------------------------------------------------------------
G|--------------------------------------------------------------
D|--------------------------------------------------------------
A|--9--9--9--9--10--10--10--10--11--11--11--11--12--12--12--12--
E|--7--7--7--7--7---7---7---7---7---7---7---7---7---7---7---7---



E|--------------------------------------------
B|--------------------------------------------
G|--------------------------9-----------7-----
D|--9--9--5--7--9--9-----9-----9-----7-----7--
A|--9--9--5--7--9--9--7-----------5-----------
E|--7--7--3--5--7--7--------------------------
http://www.guitartabcreator.com
Guitar Tab Creator is intended to store guitar tab created through the tool. It currently does not support in-line text editing. Any text you place in here will be lost. If you need to comment on your tab, please use the "Tab Notes" section located below.