Burned A Witch (Jumpin' Janine) Bass Tab

(/) Slide Up  (\) Slide Down  (h) Hammer On  (p) Pull Off  (b) Bend (r) Release (v) Vibrato
E|-----------------------------------------------------------------------------------
B|-----------------------------------------------------------------------------------
G|----------------------------------------4------------------------------------------
D|-----9---9-8-7------------9-------4-5-7-------9---9-8-7--------------2-------------
A|-7-7---7-------10-9-7-7-7---7-5-7---------7-7---7-------10-9-7-3-2-3---3-2-0-------
E|-----------------------------------------------------------------------------3-2-0-



E|---------------------------------------------------------------------------------------
B|---------------------------------------------------------------------------------------
G|---------------------------------------------------------------------------------------
D|---------------------5-----------------------------------------------------------------
A|---------------5h7-------7---7---7---7---2/3---3---3---3---3---3---5---5---5---2-------
E|---0---0---0-----------------------------------------------------------------------3---



E|--------------------------------------------------------------------------------------------------------------
B|--------------------------------------------------------------------------------------------------------------
G|--------------------------------------------------------------------------------------------------------------
D|--------9-----8-----9--9-----------7-----6-----7--7-----------5-----4-----5--5-----------4-----3-----4--4-----
A|--7--7-----7-----7--------7--5--5-----5-----5--------5--3--3-----3-----3--------3--2--2-----2-----2--------2--
E|--------------------------------------------------------------------------------------------------------------
http://www.guitartabcreator.com
Guitar Tab Creator is intended to store guitar tab created through the tool. It currently does not support in-line text editing. Any text you place in here will be lost. If you need to comment on your tab, please use the "Tab Notes" section located below.