the stranger

(/) Slide Up  (\) Slide Down  (h) Hammer On  (p) Pull Off  (b) Bend (r) Release (v) Vibrato

Stave 1:

E|----------------------------------------------------------------------------
B|-----------11/12-12-13-10----10---------10-13-12-10-------------------------
G|---9-11-12----------------12------11-12-------------12-11-9-----------------
D|-9------------------------------9-------------------------------------------
A|----------------------------------------------------------------------------
E|----------------------------------------------------------------------------

Stave 2:

E|---12-----------------------------------------------------------
B|------12-13-15-13p12h13-13----10-12-10----10--------------------
G|-9-------------------------12----------12----12-9-11-12-11p9h11-
D|----------------------------------------------------------------
A|----------------------------------------------------------------
E|----------------------------------------------------------------

http://www.guitartabcreator.com
Guitar Tab Creator is intended to store guitar tab created through the tool. It currently does not support in-line text editing. Any text you place in here will be lost. If you need to comment on your tab, please use the "Tab Notes" section located below.