P.T.O

(/) Slide Up  (\) Slide Down  (h) Hammer On  (p) Pull Off  (b) Bend (r) Release (v) Vibrato
E|-----------|--------------------|-----------------|--------------------|-------------------|--
B|-----------|--------------------|-----------------|--------------------|-------------------|--
G|--------4--|--------6--------4--|--6--4--------6--|--------------------|----------------6--|--
D|--------4--|-----2--6--------2--|--4--2--------6--|--------------------|----------------6--|--
A|--------2--|--------4--2--4-----|-----------2--4--|--------------------|-------------2--4--|--
E|--2--4-----|--4-----------------|--------4--------|--------------------|----------4--------|--



E|----------x--9--x--9--9---x--x--|--9--x--11--9--x--x--9---9--|-----
B|----------x--9--x--9--10--x--x--|--9--x--9---9--x--x--10--9--|-----
G|----------x--9--x--9--9---x--x--|--9--x--9---9--x--x--9---9--|-----
D|--------------------------------|----------------------------|-----
A|--------------------------------|----------------------------|-----
E|--------------------------------|----------------------------|-----



E|--------------------|-----------------------|--
B|--------------------|-----------------------|--
G|--------------------|-----------------------|--
D|-----2--------------|-----2-----4--2--------|--
A|--4--------2--4--2--|--4-----4--------4--2--|--
E|--------4-----------|-----------------------|--



E|-------------------------|----------------------|----------------------|-----------------------|--
B|-------------------------|----------------------|----------------------|-----------------------|--
G|-------------------------|-------------------2--|--2--2--2--2--4-------|-----------------------|--
D|--6--6--6--6--6--4----4--|--4--4--4--4--6----2--|--2--2--2--2--4----6--|--6--6--6--6--6--6--6--|--
A|--6--6--6--6--6--4----4--|--4--4--4--4--6----0--|--0--0--0--0--2----6--|--6--6--6--6--6--6--6--|--
E|--4--4--4--4--4--2----2--|--2--2--2--2--4-------|-------------------4--|--4--4--4--4--4--4--4--|--



E|-------------------------|-------------------|-----------------|-------------------|--
B|-------------------------|-------------------|-----------------|-------------------|--
G|-------------------------|-------------------|-----------------|----------4--4--4--|--
D|--6--6--6--6--6--4----4--|--4----------------|-----------------|--0-------2--2--2--|--
A|--6--6--6--6--6--4----4--|--4--------0-------|--------0--2--4--|-----4-------------|--
E|--4--4--4--4--4--2----2--|--2--2--0-----2----|--2--4-----------|-------------------|--



E|-----------------|-------------------|-----------------|-----------------|--------------------|--
B|-----------------|-------------------|-----------------|-----------------|--------------------|--
G|-----------------|----------6--6--6--|-----------------|--------------4--|--------6--------4--|--
D|-----------0--2--|--4--2----4--4--4--|-----------0--2--|--4--2--------4--|-----2--6--------2--|--
A|--0--2--4--------|-------------------|--0--2--4--------|--------------2--|--------4--2--4-----|--
E|-----------------|-------------------|-----------------|--------2--4-----|--4-----------------|--



E|-----------------|-----------------------------------------------------------------------------------------
B|-----------------|-----------------------------------------------------------------------------------------
G|--6--4--------6--|-----------------------------------------------------------------------------------------
D|--4--2--------6--|-----------------------------------------------------------------------------------------
A|-----------2--4--|-----------------------------------------------------------------------------------------
E|--------4--------|-----------------------------------------------------------------------------------------



E|-----------------|--------------------|-----------------|--------------------|-----------|--
B|-----------------|--------------------|-----------------|--------------------|-----------|--
G|--------------4--|--------6--------4--|--6--4--------4--|--------6--------4--|--6--4--6--|--
D|--4--2--------4--|-----2--6--------2--|--4--2--------4--|-----2--6--------2--|--4--2--6--|--
A|--------------2--|--------4--2--4-----|--------------2--|--------4--2--4-----|--------4--|--
E|--------2--4-----|--4-----------------|--------2--4-----|--4-----------------|-----------|--



E|--------------------|-----------------------|--
B|--------------------|-----------------------|--
G|--------------------|--------------------6--|--
D|-----2--------------|-----2-----4--------6--|--
A|--4--------2--4--2--|--4-----4--------2--4--|--
E|--------4-----------|--------------4--------|--
http://www.guitartabcreator.com
Guitar Tab Creator is intended to store guitar tab created through the tool. It currently does not support in-line text editing. Any text you place in here will be lost. If you need to comment on your tab, please use the "Tab Notes" section located below.