David Gay-Perret - Adieu

(/) Slide Up  (\) Slide Down  (h) Hammer On  (p) Pull Off  (b) Bend (r) Release (v) Vibrato
E|--9--11--12--11--9--7--9--
B|--------------------------
G|--------------------------
D|--------------------------
A|--------------------------
E|--------------------------



E|--9--12--9--14--12--11--9--7--9--
B|---------------------------------
G|---------------------------------
D|---------------------------------
A|---------------------------------
E|---------------------------------



E|--9--11--12--9--9--7--9--9--7--9--11--12--
B|------------------------------------------
G|------------------------------------------
D|------------------------------------------
A|------------------------------------------
E|------------------------------------------



E|--9--11--9--12--9--11--12--14--16--14--12--11--9--7--9--
B|--------------------------------------------------------
G|--------------------------------------------------------
D|--------------------------------------------------------
A|--------------------------------------------------------
E|--------------------------------------------------------



E|--9--11--12--11--12--11--9--7--9--
B|----------------------------------
G|----------------------------------
D|----------------------------------
A|----------------------------------
E|----------------------------------



E|--12--14--15--12--12--10--12--14--15--14--12--10--12--
B|------------------------------------------------------
G|------------------------------------------------------
D|------------------------------------------------------
A|------------------------------------------------------
E|------------------------------------------------------



E|-----------------------------------------
B|--12--14--15--12--12--10--12--10--12--7--
G|-----------------------------------------
D|-----------------------------------------
A|-----------------------------------------
E|-----------------------------------------
http://www.guitartabcreator.com
Guitar Tab Creator is intended to store guitar tab created through the tool. It currently does not support in-line text editing. Any text you place in here will be lost. If you need to comment on your tab, please use the "Tab Notes" section located below.