Pianointro simon

(/) Slide Up  (\) Slide Down  (h) Hammer On  (p) Pull Off  (b) Bend (r) Release (v) Vibrato

E|---------------
B|---------------
G|---------------
D|--0--2--3--10--
A|--0--3--1--10--
E|--0--2--0--10--



E|------------------------------
B|------------------------------
G|------------------------------
D|--12--0--12--0--10--0--12--0--
A|--13--0--12--0--10--0--12--0--
E|--12--0--12--0--10--0--12--0--



E|---------------12----------12----------13----------13-----
B|-------10--11------10--11------10--11------10--11---------
G|----------------------------------------------------------
D|--0-------------------------------------------------------
A|--0-------------------------------------------------------
E|--0-------------------------------------------------------



E|--5-------6-------8--------10-----
B|--8b10----9b11----11b13----13b15--
G|----------------------------------
D|----------------------------------
A|----------------------------------
E|----------------------------------
http://www.guitartabcreator.com
Guitar Tab Creator is intended to store guitar tab created through the tool. It currently does not support in-line text editing. Any text you place in here will be lost. If you need to comment on your tab, please use the "Tab Notes" section located below.