Pianointro filip

(/) Slide Up  (\) Slide Down  (h) Hammer On  (p) Pull Off  (b) Bend (r) Release (v) Vibrato


E|---------------------------------|-------------------------------------|-
B|---------------------------------|-------------------------------------|-
G|---------------------------------|-------------------------------------|-
D|---------------------------------|---------------------------8-8-8-7-7-|-
A|---------------------------------|-------------------------------------|-
E|-1-1-1-1-5-5-5-5-3-3-3-3-5-5-5-5-|-6-6-6-6-10-10-10-10-8-8-8-----------|-



E|--------------|--------------|--
B|--------------|--------------|--
G|--------------|--------------|--
D|--------------|--------------|--
A|-----5-----5--|-----3--------|--
E|--3-----1-----|--0-----5--1--|--



E|---------------------------------|-------------------------------------|-
B|---------------------------------|-------------------------------------|-
G|---------------------------------|-------------------------------------|-
D|---------------------------------|-----------------7-7-7-7-12-12-12-12-|-
A|-------------------------5-5-5-5-|-7-7-7-7-8-8-8-8---------------------|-
E|-3-3-3-3-5-5-5-5-6-6-6-6---------|-------------------------------------|-
http://www.guitartabcreator.com
Guitar Tab Creator is intended to store guitar tab created through the tool. It currently does not support in-line text editing. Any text you place in here will be lost. If you need to comment on your tab, please use the "Tab Notes" section located below.