Joy to the world

(/) Slide Up  (\) Slide Down  (h) Hammer On  (p) Pull Off  (b) Bend (r) Release (v) Vibrato

E|--5--4--2--0--------------0--2--2--4--4--5--5--5--4--2--0--0--------5--5--4--2--0--0--------
B|--------------3--2--0-----------------------------------------3--2--------------------3--2--
G|-----------------------2--------------------------------------------------------------------
D|--------------------------------------------------------------------------------------------
A|--------------------------------------------------------------------------------------------
E|--------------------------------------------------------------------------------------------



E|--------------------0-----------------------------------5-----0--------------------
B|--2--2--2--2--2--3-----3--2--0--0--0--0--2--3--2--0--------7-----3--2--3--2--0-----
G|-----------------------------------------------------2--------------------------2--
D|-----------------------------------------------------------------------------------
A|-----------------------------------------------------------------------------------
E|-----------------------------------------------------------------------------------
http://www.guitartabcreator.com
Guitar Tab Creator is intended to store guitar tab created through the tool. It currently does not support in-line text editing. Any text you place in here will be lost. If you need to comment on your tab, please use the "Tab Notes" section located below.