New Project

(/) Slide Up  (\) Slide Down  (h) Hammer On  (p) Pull Off  (b) Bend (r) Release (v) Vibrato


E|----------------------------------------------------------------------------------------------
B|-----------------------------------------------------------------------------8--10--8--10-----
G|-----4--5--4-----------4--5--4--5--7-----4--5--4-----------4--5--4--5--7--9-------------------
D|--7-----------5--7--7-----------------7-----------5--7--7-------------------------------------
A|----------------------------------------------------------------------------------------------
E|----------------------------------------------------------------------------------------------



E|------------------------------------------------------15--17--17--
B|--13--15--13--15------------------12--13--15--15--17--------------
G|------------------12--12--14--12----------------------------------
D|------------------------------------------------------------------
A|------------------------------------------------------------------
E|------------------------------------------------------------------



E|---------------------------------------------------------------12---------15--17--15--17----------
B|-----------------------------------------8--10--8--10--13--15------15b17------------------17--15--
G|-----4--5--4-----------4--5--4--5--7--9-----------------------------------------------------------
D|--7-----------5--7--7-----------------------------------------------------------------------------
A|--------------------------------------------------------------------------------------------------
E|--------------------------------------------------------------------------------------------------



E|--------------------------------------------------
B|--------------------------------------------------
G|--12--14--12--14--12--14--12--14--12--14--12--14--
D|--------------------------------------------------
A|--------------------------------------------------
E|--------------------------------------------------
http://www.guitartabcreator.com
Guitar Tab Creator is intended to store guitar tab created through the tool. It currently does not support in-line text editing. Any text you place in here will be lost. If you need to comment on your tab, please use the "Tab Notes" section located below.