Falling Apart

(/) Slide Up  (\) Slide Down  (h) Hammer On  (p) Pull Off  (b) Bend (r) Release (v) Vibrato

E|-------------------------------------------------------8--10--10--10--8-------------------------
B|-------------------------------5--5--8--8--10--10--10--------------------13--15--13--15b16------
G|-----5--7--5--7b8--5-----5--7---------------------------------------------------------------14--
D|--7-------------------7-------------------------------------------------------------------------
A|------------------------------------------------------------------------------------------------
E|------------------------------------------------------------------------------------------------



E|--17b19--17--15--17-------------------------------------
B|---------------------15--17--17--15--17-----------------
G|-----------------------------------------16--14--12--14\
D|--------------------------------------------------------
A|--------------------------------------------------------
E|--------------------------------------------------------
http://www.guitartabcreator.com
Guitar Tab Creator is intended to store guitar tab created through the tool. It currently does not support in-line text editing. Any text you place in here will be lost. If you need to comment on your tab, please use the "Tab Notes" section located below.