Empty Needle Solo

(/) Slide Up  (\) Slide Down  (h) Hammer On  (p) Pull Off  (b) Bend (r) Release (v) Vibrato

E|------------------------------
B|--12--13--12--13--15--13--10--
G|------------------------------
D|------------------------------
A|------------------------------
E|------------------------------



E|------------------------------------------------12--
B|--12--13--12--13--15--13--15--15b17--15b17--15------
G|----------------------------------------------------
D|----------------------------------------------------
A|----------------------------------------------------
E|----------------------------------------------------



E|--12--14--15--15--17--17b19--17b19--17--
B|----------------------------------------
G|----------------------------------------
D|----------------------------------------
A|----------------------------------------
E|----------------------------------------



E|---------------------------------------------------------------------------------------------
B|--15--17--15--17--13--15--13--15--12--13--12--13--10--12--10--12--10v--5--8--5--8--5--8--10--
G|---------------------------------------------------------------------------------------------
D|---------------------------------------------------------------------------------------------
A|---------------------------------------------------------------------------------------------
E|---------------------------------------------------------------------------------------------



E|--8--10--8--10--12--20--17--20--17--20--17--19--20--17--
B|--------------------------------------------------------
G|--------------------------------------------------------
D|--------------------------------------------------------
A|--------------------------------------------------------
E|--------------------------------------------------------
http://www.guitartabcreator.com
Guitar Tab Creator is intended to store guitar tab created through the tool. It currently does not support in-line text editing. Any text you place in here will be lost. If you need to comment on your tab, please use the "Tab Notes" section located below.