No Strings

(/) Slide Up  (\) Slide Down  (h) Hammer On  (p) Pull Off  (b) Bend (r) Release (v) Vibrato
t: Q Q Q Q Q Q Q Q Q Q Q Q Q Q undefined Q Q Q Q Q Q undefined Q Q Q Q Q Q Q
E|--0-------------------0----------------------0-------------------0--------------------
B|-----7-----------7-------7--------------7-------7-----------7-------7--------------7--
G|--------7-----7-------------7--------7-------------7-----7-------------7--------7-----
D|-----------0----------------------0-------------------0----------------------0--------
A|-------------------------------0------------------------------------------0-----------
E|--------------------------------------------------------------------------------------


t: Q Q Q Q Q Q Q Q Q Q Q Q Q Q undefined Q Q Q Q Q Q
E|-------------------------0-------------------------------------
B|--0-----------------7-------7--------7-------0-----------------
G|-----7-----------7-------------5--------5-------7-----------7--
D|--------5-----0-------------------0----------------5-----5-----
A|-----------0------------------------------------------0--------
E|---------------------------------------------------------------



E|--0---------------------------------------------------------------------------
B|-----2--------2-----2----0------------------------3------------------------5--
G|--------2--------2----------0----------------0-------2------------------4-----
D|-----------0-------------------2----------2-------------0------------0--------
A|----------------------------------2h3--2-------------------1h3--3\5-----------
E|------------------------------------------------------------------------------



E|---------------------------------------------------------------
B|--3----------------------3-------------------3-----------------
G|-----4--------4-----4-------5-----------5-------5-----------5--
D|--------0--------0-------------5-----5-------------5-----5-----
A|-----------0----------------------0-------------------4--------
E|---------------------------------------------------------------



E|--0-----------------
B|-----2-----------2--
G|--------1-----1-----
D|-----------2--------
A|--------------------
E|--------------------



E|--0-------------------0----------------------0-------------------0--------------------
B|-----7-----------7-------7--------------7-------7-----------7-------7--------------7--
G|--------7-----7-------------7--------7-------------7-----7-------------7--------7-----
D|-----------0----------------------0-------------------0----------------------0--------
A|-------------------------------0------------------------------------------0-----------
E|--------------------------------------------------------------------------------------
http://www.guitartabcreator.com
Guitar Tab Creator is intended to store guitar tab created through the tool. It currently does not support in-line text editing. Any text you place in here will be lost. If you need to comment on your tab, please use the "Tab Notes" section located below.