Maybe a start or a middle part for a song.. more coming:**

(/) Slide Up  (\) Slide Down  (h) Hammer On  (p) Pull Off  (b) Bend (r) Release (v) Vibrato
t: Q Q Q Q Q Q Q Q Q Q QQ QQ Q QQ Q undefined undefined Q QQ QQ Q Q Q Q
E|---------------------------------------------------------------------------
B|---------------------------------------------------------------------------
G|-----------0-----9---------------------------------------------------------
D|-----9--9-----0-----0------------------------------------------9-----0-----
A|------------------------------10--10--9--10--0---------10--10-----0-----9--
E|--0------------------------0------------------------0----------------------



E|-------------------------------------
B|-------------------------------------
G|-------------------------------------
D|-----9--9--0--9--10--9--0--9---------
A|-------------------------------------
E|--0-------------------------------0--
http://www.guitartabcreator.com
Guitar Tab Creator is intended to store guitar tab created through the tool. It currently does not support in-line text editing. Any text you place in here will be lost. If you need to comment on your tab, please use the "Tab Notes" section located below.