Shadow Cast (Bass)

(/) Slide Up  (\) Slide Down  (h) Hammer On  (p) Pull Off  (b) Bend (r) Release (v) Vibrato


Shadow Cast (Bass)
Tuning: "NOWAKE Drop"

Song Structure: Intro (same as verse part), Verse, Chorus, Verse, Chorus, Solo, Drums Only, Chorus,
Verse Part (w/o lyrics), Outro


Verse

E|--------------------|-----------------------|--
B|--------------------|-----------------------|--
G|--------------------|-----------------------|--
D|--------------------|-----------------------|--
A|--------------------|--------------------1--|--
E|--0--0--1--3--0--0--|--0--0--1--3--0--0-----|--


Chorus

E|--------------------------------------------------------|--
B|--------------------------------------------------------|--
G|--------------------------------------------------------|--
D|--------------------------------------------------------|--
A|--5--5--5--5--5--5--5--5--3--3--------------------------|--
E|--------------------------------3--0--0--3--0--0--3--0--|--



E|-----------------------------|--
B|-----------------------------|--
G|-----------------------------|--
D|-----------------------------|--
A|--5--5--5--5--5--5--5--5--3--|--
E|-----------------------------|--



E|--------------------------------------------------------|--
B|--------------------------------------------------------|--
G|--------------------------------------------------------|--
D|--------------------------------------------------------|--
A|--5--5--5--5--5--5--5--5--3--3--------------------------|--
E|--------------------------------3--0--0--3--0--0--3--0--|--



E|-----------------------------------------------|--
B|-----------------------------------------------|--
G|-----------------------------------------------|--
D|-----------------------------------------------|--
A|--5--5--5--5--5--5--5--8--8--8--8--10--10--10--|--
E|-----------------------------------------------|--


Outro

E|--------------------------------------------|--
B|--------------------------------------------|--
G|--------------------------------------------|--
D|--------------------------------------------|--
A|--------------------------------------------|--
E|--0--0--0--0--0--0--0--0--0--0--0--0--1--3--|--



E|-----------------------------------------|--
B|-----------------------------------------|--
G|-----------------------------------------|--
D|-----------------------------------------|--
A|--------------------------------------1--|--
E|--0--0--0--0--0--0--0--0--0--0--0--0-----|--



E|--------------------------------------------|--
B|--------------------------------------------|--
G|--------------------------------------------|--
D|--------------------------------------------|--
A|--------------------------------------------|--
E|--0--0--0--0--0--0--0--0--0--0--0--0--1--3--|--



E|-----------------|-----------|--
B|-----------------|-----------|--
G|-----------------|-----------|--
D|-----------------|-----------|--
A|-----------------|-----------|--
E|--0--0--0--0--0--|--0--0--0--|--
http://www.guitartabcreator.com
Guitar Tab Creator is intended to store guitar tab created through the tool. It currently does not support in-line text editing. Any text you place in here will be lost. If you need to comment on your tab, please use the "Tab Notes" section located below.