Our Hero (Bass)

(/) Slide Up  (\) Slide Down  (h) Hammer On  (p) Pull Off  (b) Bend (r) Release (v) Vibrato

Our Hero (Bass)
Tuning: "NOWAKE Standard"

Song Structure: Intro (Sean Only), Verse, Pre Chorus, Chorus, Verse, Pre Chorus, Chorus, Solo, Chorus, Outro (Sean Only)

Verse

E|-----------------|--
B|-----------------|--
G|-----------------|--
D|-----------------|--
A|--5--3--0--1--3--|--
E|-----------------|--


Pre Chorus

E|--------------------|--
B|--------------------|--
G|--------------------|--
D|--------------------|--
A|--5--8--10--13--15--|--
E|--------------------|--


Chorus

E|--------------------------------------------------------------------|--
B|--------------------------------------------------------------------|--
G|--------------------------------------------------------------------|--
D|--------------------------------------------------------------------|--
A|--3--5--5--5--5--3--0--0--0--0--------------------------------------|--
E|--------------------------------3--1--1--1--1--1--1--0--0--1--1--3--|--



E|--
B|--
G|--
D|--
A|--
E|--
http://www.guitartabcreator.com
Guitar Tab Creator is intended to store guitar tab created through the tool. It currently does not support in-line text editing. Any text you place in here will be lost. If you need to comment on your tab, please use the "Tab Notes" section located below.