Not the Only One (Bass)

(/) Slide Up  (\) Slide Down  (h) Hammer On  (p) Pull Off  (b) Bend (r) Release (v) Vibrato

Not the Only One (Bass)
Tuning: "NOWAKE drop"

Song Structure: Intro, Craziness, Verse, Craziness, Chorus, Solo, Verse, Chorus

INTRO

E|-----------|--
B|-----------|--
G|-----------|--
D|-----------|--
A|-----------|--
E|--0--3--5--|--


CRAZINESS

E|-----------------------------------------|--------------------------------------|--
B|-----------------------------------------|--------------------------------------|--
G|-----------------------------------------|--------------------------------------|--
D|--------------------3-----------3--5--3--|--------------------3-----------3--5--|--
A|-----3--5-----3--5--------3--5-----------|-----3--5-----3--5--------3--5--------|--
E|--0--------0-----------0-----------------|--0--------0-----------0--------------|--


VERSE

E|-----------------------------------------------------------------------|--
B|-----------------------------------------------------------------------|--
G|-----------------------------------------------------------------------|--
D|-----------------------------------------------------------------------|--
A|-----------------------------------------------------3--3--3--3--3-----|--
E|--0--0--3--5--0--0--0--0--7--5--5--5--0--0--3--5--0-----------------5--|--


CHORUS

E|-----------------|--
B|-----------------|--
G|-----------------|--
D|-----------------|--
A|-----------------|--
E|--0--3--5--3--0--|--
http://www.guitartabcreator.com
Guitar Tab Creator is intended to store guitar tab created through the tool. It currently does not support in-line text editing. Any text you place in here will be lost. If you need to comment on your tab, please use the "Tab Notes" section located below.