Hailstorm (Bass)

(/) Slide Up  (\) Slide Down  (h) Hammer On  (p) Pull Off  (b) Bend (r) Release (v) Vibrato

Hailstorm (Bass)
Tuning: "NOWAKE Drop"

Song Structure: Bass Intro (play Verse Part), Verse, Chorus, Verse, Chorus, Solo, Chorus


Verse

E|--------------------------------------------------------|--
B|--------------------------------------------------------|--
G|--------------------------------------------------------|--
D|--------------------------------------------------------|--
A|-----------------------------------------------------1--|--
E|--0--0--0--3--0--0--0--0--3--0--0--0--0--3--0--0--3-----|--


Chorus

E|-----------------------------------------------------------------------------------------------------
B|-----------------------------------------------------------------------------------------------------
G|-----------------------------------------------------------------------------------------------------
D|-----------------------------------------------------------------------------------------------------
A|-----------------------------------------------------------------------------------------------1-----
E|--5--5--5--5--5--5--2--3--3--3--3--3--3--2--0--0--0--3--0--0--0--0--3--0--0--0--0--3--0--0--3--------
http://www.guitartabcreator.com
Guitar Tab Creator is intended to store guitar tab created through the tool. It currently does not support in-line text editing. Any text you place in here will be lost. If you need to comment on your tab, please use the "Tab Notes" section located below.