Getaway (Bass)

(/) Slide Up  (\) Slide Down  (h) Hammer On  (p) Pull Off  (b) Bend (r) Release (v) Vibrato

Getaway (Bass)
Tuning: "NOWAKE Standard"

Structure of Song: Intro, Verse, Pre Chorus, Chorus, Verse, Pre Chorus, Chorus, Solo (play verse part during solo), drop out while vocals and drums play, then come in with bridge part, Chorus, Outro


INTRO/ CHORUS PART

E|--------------------------|--------------------------|--------------------------|--
B|--------------------------|--------------------------|--------------------------|--
G|--------------------------|--------------------------|--------------------------|--
D|--------------------------|--------------------------|--------------------------|--
A|--------7--------7-----7--|--------7--------7-----7--|--------5--------5-----5--|--
E|--0--0-----0--0-----0-----|--0--0-----0--0-----0-----|--0--0-----0--0-----0-----|--



E|-----------------------------------|--
B|-----------------------------------|--
G|--------------------------7--7--9--|--
D|--------------------7--9-----------|--
A|--------7--------7-----------------|--
E|--0--0-----0--0--------------------|--


VERSE PART

E|--------------|--
B|--------------|--
G|--------------|--
D|--------------|--
A|--7--5--7--5--|--
E|--------------|--


PRE CHORUS PART

E|--------------------|--
B|--------------------|--
G|--------------------|--
D|--------------------|--
A|--7--5--3--3--5--2--|--
E|--------------------|--


BRIDGE PART

E|--------------
B|--------------
G|--------------
D|--------------
A|--7--7--5--7--
E|--------------


OUTRO PART

E|--------------------------------------|--------------------------------------------
B|--------------------------------------|--------------------------------------------
G|--------------------------------------|--------------------------------------------
D|--------------------------------------|--------------------------------------------
A|--------7--------7--------9--------9--|--------5--------5--------7--------7-----7--
E|--0--0-----0--0-----0--0-----0--0-----|--0--0-----0--0-----0--0-----0--0-----0-----
http://www.guitartabcreator.com
Guitar Tab Creator is intended to store guitar tab created through the tool. It currently does not support in-line text editing. Any text you place in here will be lost. If you need to comment on your tab, please use the "Tab Notes" section located below.