Come Thou Fount --- Lead (Key of C)

(/) Slide Up  (\) Slide Down  (h) Hammer On  (p) Pull Off  (b) Bend (r) Release (v) Vibrato

Riff 1
E|-------------------------------------------------------------
B|-----------------------8----------------8--10--8-------------
G|--7/9/7--5--5v----7/9-----7--7v----7/9------------7/9--7--5-- (REPEAT)
D|-------------------------------------------------------------
A|-------------------------------------------------------------
E|-------------------------------------------------------------


Riff 2
E|-------------------------------------------------------------------
B|-------8/13--12--12p10--8/10\8-------------8/13--12--12p10--8/13v--
G|--7/9---------------------------9v----7\9--------------------------
D|-------------------------------------------------------------------
A|-------------------------------------------------------------------
E|-------------------------------------------------------------------

Repeat Riff 1
http://www.guitartabcreator.com
Guitar Tab Creator is intended to store guitar tab created through the tool. It currently does not support in-line text editing. Any text you place in here will be lost. If you need to comment on your tab, please use the "Tab Notes" section located below.