Come Thou Fount (Key of C)

(/) Slide Up  (\) Slide Down  (h) Hammer On  (p) Pull Off  (b) Bend (r) Release (v) Vibrato

C G C F C
E|----------------------------------------------------------
B|----------------------------------------------------------
G|-----------------------0---------------0--2--0------------ (REPEAT)
D|--0h2--0----------0h2-----0--0----0h2----------0h2--0-----
A|----------3--3-----------------------------------------3--
E|----------------------------------------------------------


C Em F C F C C Em F C
E|----------------------------------------------------------
B|----------------------------------------------------------
G|-------0/5--4--4p2p0--2--0-------------0/5--4--4p2p0/5-(5)
D|--0h2-----------------------2------0h2-----------------(5)
A|----------------------------------------------------------
E|----------------------------------------------------------


C G C F C
E|-------------------------------------------------------------
B|-------------------------------------------------------------
G|-----------------------0---------------0--2--0---------------
D|--0h2--0----------0h2-----0--0----0h2----------0h2--0--------
A|----------3--3-----------------------------------------3-----
E|-------------------------------------------------------------


http://www.guitartabcreator.com
Guitar Tab Creator is intended to store guitar tab created through the tool. It currently does not support in-line text editing. Any text you place in here will be lost. If you need to comment on your tab, please use the "Tab Notes" section located below.