This is Amazing Grace (Lead) Key of A

(/) Slide Up  (\) Slide Down  (h) Hammer On  (p) Pull Off  (b) Bend (r) Release (v) Vibrato

E|----9----9----9----9----9----9----9----9-
B|-10---10---10---10---10---10---10---10---
G|-----------------------------------------
D|-----------------------------------------
A|-----------------------------------------
E|-----------------------------------------



E|----9----9----9----9---12---12---12---12-
B|-10---10---10---10---9----9----9----9----
G|-----------------------------------------
D|-----------------------------------------
A|-----------------------------------------
E|-----------------------------------------



E|----9----9----9----9----9----9----9----9-
B|-10---10---10---10---10---10---10---10---
G|-----------------------------------------
D|-----------------------------------------
A|-----------------------------------------
E|-----------------------------------------



E|----9----9---12-
B|-10---10---9----
G|----------------
D|----------------
A|----------------
E|----------------



E|------------------------2------------------------------
B|-2-2---2--2---2-----2-5-----2-2---2--2---2-----2-5-2---
G|-----4------4---2-4-------------4------4---2-4-------2-
D|-------------------------------------------------------
A|-------------------------------------------------------
E|-------------------------------------------------------



E|--------------------------------12-14---
B|-14-14-12-14--14-12-14----12-14---------
G|-----------------------14---------------
D|----------------------------------------
A|----------------------------------------
E|----------------------------------------



E|------------------------------------------------12------
B|--14--14--12--14----14--12--14------12--14--15------14--
G|--------------------------------14----------------------
D|--------------------------------------------------------
A|--------------------------------------------------------
E|--------------------------------------------------------
http://www.guitartabcreator.com
Guitar Tab Creator is intended to store guitar tab created through the tool. It currently does not support in-line text editing. Any text you place in here will be lost. If you need to comment on your tab, please use the "Tab Notes" section located below.