American Dad

(/) Slide Up  (\) Slide Down  (h) Hammer On  (p) Pull Off  (b) Bend (r) Release (v) Vibrato

E|-------------------------------------------------------------------
B|----------------------------1--3--1--------1-----------------------
G|-----------0--2--3-------3-----------3--2-----3--2--0--3--2--0-----
D|--3--0--3-------------3-----------------------------------------3--
A|-------------------------------------------------------------------
E|-------------------------------------------------------------------



E|----------------------------------------------------------------------------------
B|-------------------------------------------------------------3--1--------------1--
G|-----------0--2--2-----------2--3----3--2--1--0-----0--2--3--------3--2--3--4-----
D|--3--1--3-----------3--0--3----------------------4--------------------------------
A|----------------------------------------------------------------------------------
E|----------------------------------------------------------------------------------



E|-------------------------------------------------------------------------------------
B|-----------------------1-------3--3--2--3--4-------1--1--3--3------------------------
G|-----0--2-----2--3--4---------------------------0--------------3----3----3--2--1--0--
D|--3--------3----------------3--------------------------------------------------------
A|-------------------------------------------------------------------------------------
E|-------------------------------------------------------------------------------------



E|-----------------1--
B|-----1--1--3--3-----
G|--0-----------------
D|--------------------
A|--------------------
E|--------------------
http://www.guitartabcreator.com
Guitar Tab Creator is intended to store guitar tab created through the tool. It currently does not support in-line text editing. Any text you place in here will be lost. If you need to comment on your tab, please use the "Tab Notes" section located below.